VIRGIN STEELE
'ARMS OF MERCURY'
from "The House of Atreus ACT II"
  
transcribed by Joni Fred
  
(suomi-finland-perkele!!)

from http://virgin-steele.rockmetal.art.pl

riff a
there is no guitar in riff a and riff b.but there is bass.

let ring riff b
piano you'll get idea 
am dm fill c g a c d bm
e--------------------------------------|5|-------------------------------------------------------e
b--------------------------------6-----|6|----------5--------------5-----------------------------b
g---------5------5-------------7---7----------------5--------------5----7--------------7---------g
d-------7---7--7---7---------7----------------------5----0-----2---5----7-----0--------5---------d
a-------------------------5----------------------3--3----2--0--0-3-3--5-5-----2-----7--5---------a
e--5----------------(5)-------------------------------3--3-----------------3--3--5--5--7---------e

riff c 

e-----------------------------------------------------------------------------e
b-----------------------------------------------------------------------------b
g--5----5--------2------2---5----9-----5----5-------2-----2--5--9-------------g
d--5----5--5-----2---0--2---5----9-----5----5-5-----2--0--2--5--9-------------d
a--3---(3)-2^^---0---2--0---2----7-----3---(3)2^^---0--2--0--3--7-------------a
e--------------------3---------------------------------3----------------------e

chorus riff
2x
e------------------------------------------------------------------e
b------------------------------------------------------------------b
g------5-----------------------------------------------------------g
d--7-3-5--0--------7^^---9^^-----10^^--12--------------------------d
a--7-3-3--2------7-----9------10-------12-----10-9-7---------------a
e--5-1----3------5-----7------8--------10-----8--7-5---------------e


solo riff 
improvise ,
scale is c/am (I quess), fills are in em-pentaconic 

1(3).2. then
e----------------------------------------------------------------------------------------e
b----------------------------------------------------------------------------------------b
g--9--7--5--2-(5--------9-5-7------------------------------------------------------------g
d--9--7--5--2-(5--------9-5-7------------7--2--3--5-----------------7--------------------d
a--7--5--3--0-(3--------7-3-5-(555)------7--2--3--5---7-------------5-5-5-5-5-5-5--------a
e----------------------------------------5--0--1--3---5--5-5-5-5-5-----------------------e

riff c
chorus riff
end>>>>>>>>>>>>>>>