VIRGIN STEELE
'BLOOD OF THE SAINTS'
from "The Marriage of Heaven and Hell pt.1"
  
transcribed by Joni Fred
  
(suomi-finland-perkele!!)

from http://virgin-steele.rockmetal.art.pl

riff 1

|----------------------------------------------------------|
|----------------------------------------------------------|
|----------------------------------------------------------|
|----5----7----8----7----3-------5----3--5-4------4--------|
|-00---00---00---00---00---00-00---00--------7-5----7-5-3--|
|----------------------------------------------------------|

riff 2 (verse)

|-----------------------------------------------------|
|-----------------------------------------------------|
|-----------------------------------------------------|
|-3---------3----------3-2----------------------------|
|-3---------3----------1-0-3-----------repeat riff 1--|
|-1-111-111-1-111-111------1--------------------------|

riff 3
2x
|----------------------------|
|----------------------------|
|----0------0------0-----0---|
|------1------3------5-----1-|
|--3------5------6-----3-----|
|----------------------------|

repeat riff 1
repeat riff 2
repeat riff 3

riff 4

|----------|
|----------|
|----------|
|----------|
|-5-7-8-5--|
|-3-5-6-3--|


riff 5

|-----------------------------------------------------|
|-----------------------------------------------------|
|-----------------------------------------------------|
|-----------------------------------------------------|
|-5-3-5-1-3^^--3-5-1^^--5---3-5-1-3-^^-5---5---1------|
|-3---------------------3^^------------3^^-3-5---3^^--|

riff 6

|------------------------------------------------------|
|------------------------------------------------------|
|------------------------------------------------------|
|-3--5-----5----7----8----7----3-------5-4-----5-------|
|-1--3--00---00---00---00---00---00-00-----7-5---7-5-3-|
|------------------------------------------------------|


|----------------------------------------------|
|----------------------------------------------|
|----------------------------------------------|
|-3-5-7--5h7p5-4---4---------------------------|
|-1-3-5----------7---7-5-3-5h7p5-3---3---------|
|----------------------------------7---7-5-3---|

solo riff 7

|------------------------------------------------|end----------------------------|
|------------------------------------------------|-------------------------------|
|------------------------------------------------|-------------------------------|
|-3---------5------------------------------------|-3---------5---------7---------|
|-1-111-111-3-333-333--5---------5---------------|-1-111-111-3-333-333-5-555-555-|
|----------------------3-333-333-3-333-333-3-5-6-|-------------------------------|

|--------------------------------------|
|--------------------------------------|
|--------------------------------------|
|-5h7p5-4---4--------------------------|
|---------7---7-5-3-5h7p5-3---3--------|
|---------------------------7---7-5-3--|

repeat riff 1
repeat riff 3
repeat riff 4
repeat riff 3
repeat riff 4
repeat riff 3
repeat riff 5

end>>>>>>>>>>>>>>>>>>>>>>>>>>>>>>>>>>>>>>>>>>>>>>>>>>>>>>>>>>>>>>>>>>>>>>>>>>>>>>>>>>