VIRGIN STEELE
'BY THE GODS'
from "The House of Atreus ACT II"
  
transcribed by Joni Fred
  
(suomi-finland-perkele!!)

from http://virgin-steele.rockmetal.art.pl

&=repeat

riff a riff b riff c
& 2x 2x & 
e-------------------------------------------------------------------e
b-------------------------------------------------------------------b
g--9-9-9--9-9-9--9-7^--------------------------------------8--------g
d--9-9-9--9-9-9--9-7^---------------------------------7-11-8--------d
a--7-7-7--7-7-7--7-5^------10-9-7-------7------7------5-11-6--8--7--a
e--------------------------8--7-5-------5--9^^-5--9^^---9-----6--5--e

riff d riff e

e-------------------------------------------------------------------e
b-------------------------------------------------------------------b
g----------------7-10-7-10---6-2-7-9-7-9----------------------------g
d-5--7--10-3-5---7-10-7-10---6-2-7-9-7-9----------------------------d
a-5--7--10-3-5---5-8--5-8----4-0-5-7-5-7---8^^-7^^-5^^--------------a
e-3--5--8--1-3------------------------------------------------------e

riff c

e-------------------------------------------------------------------e
b-------------------------------------------------------------------b
g-------8-----------8----7------8----------9-----riff e-------------g
d-7--11-8-9--7---11-8-10-7---11-8-8-7---11-9-10--riff e-------------d
a-7--11-6-9--7---11-6-10-5---11-6-8-7---11-6-10---------------------a
e-5--9----7--5---9----8------9----6-5---9----8----------------------e


soloing part

a5 em 2x d5 c5 d5 a5
e------------------------------------------------------------------------------------------e
b-13^^-12-10-13^^-12-10--12-10-88----10^^-8-6-10^^-8-6-8-6-55-----6^^-5-3-6^^5-3-5-3-11----b
g------------------------------------------------------------------------------------------g
d------------------------------------------------------------------------------------------d
a------------------------------------------------------------------------------------------a
e------------------------------------------------------------------------------------------e

d5 e5
e-----------------151312---------------------------------------e
b--3^^--3563^^-----------151312-131210-------------------------b
g--------------------------------------12109-------------------g
d--------------------------------------------12109-------------d
a---------------------------------------------------1097-------a
e--------------------------------------------------------1097--e

riff f
|| 2x|
e--------------------------------------------------------------e
b--------------------------------------------------------------b
g--------7---------7---------------------5----------4----------g
d-7-10-5-7--7-10-5-7-----000-7-9-000-7-9-5--<5>^^---4-2-6-4----d
a-7-10-5-5--7-10-5-5-----2---------------3----------2-2-6-4----a
e-5-8--3----5-8--3-------0----------------------------0-4-2----e



e----------------------------e
b----------------------------b
g-2-4-7-4--------------------g
d-2-4-7-4-2------------------d
a-0-2-5-2-2------------------a
e---------0------------------e


e----------------------------e
b----------------------------b
g-2-4-2-4----4---7-----------g
d-2-4-2-4--4-4---7-----------d
a-0-2-0-2--4-2---5-----------a
e----------2-----------------e

end>>>>>>>>>>>>>>>>>>>>>>>>>>>>>>>>>>>>>>>>>>>>>>>>>>>>>>>>>>>>>>>>>>>>>>>>>>>>>>>>>>>>>>>>>>>>