VIRGIN STEELE
'I WAKE UP SCREAMING'
from "The Marriage of Heaven and Hell pt.1"
  
transcribed by Joni Fred
  
(suomi-finland-perkele!!)

from http://virgin-steele.rockmetal.art.pl

riff a riff b

listen record

e-------------------------------------------------------------------------------------------e
b-------------------------------------------------------------------------------------------b
g-------------------------------------------------------------------------------------------g
d---------------------------5h7--------------------------------5h7--------------------------d
a--5h7-00-5h7------etc--5h7-----5h7------5h7---------------5h7-----5h7-----5h7-----7--------a
e-----------------------------------5h7------5h7--3h5-3h5--------------5h7-----3h5-5^^------e


riff c = chorus


e----------------------------------------------------------------------------------------------------------------e
b--------------------------------------------------------------------------------------------5-------------------b
g--7-----------------------------2--------------------------------7--------------------------5-------------7-----g
d--7--7-----2---3----5-3--2^-----2--5--------2----3----5-3--2^----7--7----2---3----5-3--2^---5--7p5---7p5--7^^---d
a--5--7-----2---3----5-3--2^-----0--5--5^^---2----3----5-3--2^----5--7----2---3----5-3--2^---3------5----5-5-----a
e-----5--00---00--00--0-------------3------00--00---00--0------------5--00-00--00---0----------------------------e

those are main riffs

riff d riff e
2x 2x
e------------------------------------------------|-----------------------------------------------e
b------------------------------------------------|-----------------------------------------------b
g------------------------------------------------|-----------------------------------------------g
d----4---2--4h5p4p2-4-2------4---2--4h5p4p2------|------3----3----3h5p3-2-0-----3-----3----3-----d
a--0---0-------------------0---0------------2-0--|--000--000---000-----------000--000---000-0----a
e------------------------------------------------|-----------------------------------------------e

then solo
riff c also rhythm guitar turing solo...improvise

riff f

e---------------------------------e
b---------------------------------b
g--9---9979---9975--2---9---------g
d--9---9979---9975--2---9---------d
a--7---7757---7753--0---7---------a
e---------------------------------e

end