VIRGIN STEELE
'THE JUDGMENT OF THE SON'
from "The House of Atreus ACT II"
  
transcribed by Joni Fred
  
(suomi-finland-perkele!!)

from http://virgin-steele.rockmetal.art.pl

I play it in e tune

main riff
| (2). x|2. 2x(3x) |
|-------------------------------------------------|
|--6--6--5-5--6-6-5-5----------------6------------|
|--7--7--5-5--7-7-5-5----3---5-----7---7----------|
|--0--0-------0-0--------3---5---7-------7--------|
|--------0-0------0-0--1---3---5--------------5^^-|
|-------------------------------------------------|

chorus riff

|-------------------------------------------------|
|-------------------------------------------------|
|--7----4--------4-6--7---4---------44-66-7-------|
|--7-7--4-5--7-5-4-6--7-7-4-5--7-5--44-66-7-------|
|--5-7--2-5--7-5-2-4--5-7-2-5--7-5--22-44-5^^-----|
|----5----3--5-3--------5---3--5-3----------------|

middle part
something like this,(I guess)

2x
|------------------------------------|
|-----6------5-----------------------|
|----7-7----5-----6------9-----------|
|---7---7--5-----7-7----9-9----------|
|--5------3-----7---7--7---7---------|
|--------------5------0--------------|

main riff
chorus riff

end>>>>>>>>>>>>>>>>>>>>>>>>>>>>>>>>>>>>>>>>>>>>>>>>>>>