VIRGIN STEELE
'LIFE AMONG THE RUINS'
from "The Marriage of Heaven and Hell pt.1"
  
transcribed by Joni Fred
  
(suomi-finland-perkele!!)

from http://virgin-steele.rockmetal.art.pl

riff a

|--------------------------------------------------------|
|--------------------------------------------------------|
|-------2-<7>^^--------2--<7>^^----------2---454---------|
|-2-4-5---------2-4-5--------------2-4-5---------75457---|
|--------------------------------------------------------|
|--------------------------------------------------------|

verse riff b

|-----------------------------------|--after that-----------|
|-----------------------------------|-----------------------|
|-----------------------------------|-----------------------|
|-2p0---2------2p0----2----5-7-4-7--|--2-4-----5-----7------|
|-2p0---2------2p0----2----3-5-2-5--|--0-2-222-3-333-5-555--|
|-----0----000------0--000----------|-----------------------|

chorus riff c

|-3-----------------------3-----------------|
|-3--7----------------7---3---7-----7-------|
|-0--7-----5---5----5-7---0---7--5--7-------|
|-0--7-----5---5----5-7---0---7--5--7-------|
|-2--5--33---33--33-3-5---2---5--3--5-------|
|-3-----------------------3-----------5^^---|

solo rhytm is as riff b 
chorus riff

riff d
1. 2x 2. 2x ending
|-----------------------------|--------------------------------|-------|
|-----------------------------|--------------------------------|-------|
|-9p7---9-9p7---9p7---------7-|--6p4---6-6p4---6p4----------4--|---7---|
|-----7-------7-----7-7-8-10--|------4-------4-----4--4-5-7----|---7---|
|-----------------------------|--------------------------------|---5---|
|-----------------------------|--------------------------------|-------|

riff e
many times ending
|----------|-------------|
|----------|-------------|
|----------|-------------|
|-7--------|---5---------|
|-5^^-8----|---3-5-6-7---|
|-----6^^--|-----3-4-5---|

riff f

|-----------------------------------|----------------------|
|--13^^--12--12-13-15-15-131213^^---|-9^^-8-9-11-11-989^^--|
|-----------------------------------|----------------------|
|-----------------------------------|----------------------|
|-----------------------------------|----------------------|
|-----------------------------------|----------------------|

|----------------------|--------------------------|
|-8^^-8-9-11-11-989^^--|-8^^----------------------|
|----------------------|-----5-7------------------|
|----------------------|---------5-4-2-4-5--7^^---|
|----------------------|--------------------------|
|----------------------|--------------------------|

riff d end
2x 
|------------------------------|---------|
|------------------------------|---------|
|-4p2---2-4p2---4p2---------2--|---7-----|
|-----4-------4-----4-2-3-5----|---7-----|
|------------------------------|---5-----|
|------------------------------|---------|


chorus riff 2x
riff a
ending

|--------|
|--------|
|--9\x---|
|--9\x---|
|--7\x---|
|--------|

end>>>>>>>>>>>>>>>>>>>>>>>>>>>>>>>>>>>>>>>>>>>>>>>>>>>>>>>>>>>>>>>