VIRGIN STEELE
'WHEN THE LEGENDS DIE'
from "The House of Atreus Act II"
  
transcribed by Joni Fred
  
(suomi-finland-perkele!!)

from http://virgin-steele.rockmetal.art.pl

no killer riffs on this one!!


riff 1 bass 2x riff 2 verses 4x

|-------------------|-----------------------|
|-------------------|-----------------------|
|-------------------|-----------------------|
|-8----10---8----10-|--8----8----8-5---5----|

fill 1 riff 3 2x 

|------|-------------------------|
|------|-------------------------|
|------|-------------------------|
|--7---|-------------------------|
|--5-7-|-12-10-5-8--12-10-12-5---|
|----5-|-10-8--3-6--10-8--10-3---|

riff 4

|-----------------------------------|
|-----------------------------------|
|-----------------------------------|
|-7-5---5--7-5---5--7-5---5--7------|
|-5-3-3-3--5-3-3-3--5-3-3-3--5-10-5-|
|-----1--------1--------1------8--3-|

riff 1
riff 2
fill 1
riff 3
fill 1
riff 4


solo riff a 2x| solo riff b | solo riff c 2x | ending

|-------------|------------------|-----------------|--------|
|-------------|------------------|-----------------|--------|
|-------------|------------------|-----------------|--------|
|-9---5-------|-11--9--7--5--5---|---7-----5-------|---2----|
|-7---3-------|-9---7--5--3--3---|---5-----3-------|---0-5--|
|-------------|------------------|-----------------|-----3--|

riff 5

|---------------|
|---------------|
|---------------|
|--5--7-----2---|
|--3--5--8--0---|
|--------6------|

riff 3
riff 4

end>>>>>>>>>>>>>>>>>>>>>>>>>>>>>>>>>>>>>>>>>>>>>>>>>>>>>>>>>>>>>>>>>>>>>>