VIRGIN STEELE
'WINGS OF VENGEANCE'
from "The House of Atreus ACT II"
  
transcribed by Joni Fred
  
(suomi-finland-perkele!!)

from http://virgin-steele.rockmetal.art.pl

gsolo = guitar solo
ksolo = keyboard solo
&& = coda


intro riff a
2x
|------------------------------------------------|
|------------------------------------------------|
|-tr-----tr----tr--------------------------------|
|-4hp5p4-4h5p4-4h5p4-5-4----5-4----4-2---2-0-----|
|------------------------5-------7-----5-----3---|
|------------------------------------------------|

&&

verse riff b
2x fill 3. time
|------------------------------------| ------------|
|------------------------------------| ------------|
|--9--------7-------5-----------7----| ------------|
|--9--------7-------5--------5--7----| ------------|
|--7---7777-5--5555-3--3333--5--5----| -5555-------|
|----------------------------3-------| ------------|

riff c

|-------------------------------| 
|-------------------------------| 
|-5-7-9--------------5-7-4--5-7-| 
|-5-7-9-------7-5-3--5-7-4--5-7-| 
|-3-5-7--9-10-9-7-5--3-5-2--3-5-| 
|-------------------------------|

chorus riff

|-----------------------------------------------------------------------------|
|-----------------------------------------------------------------------------|
|-----------------------------------------------------------------------------|
|-12----------12----9----------12----------12----9---7-5------------9---------|
|-10-12-7-10--10-12-7-9-10-12--10-12-7-10--10-12-7---5-3-7--9-10-12---12-10--9|
|----10-5-8------10---------------10-5-8------10---------5--------------------|

&&

middle part

solo

|----------------------------------------------------------------------------------|
|----------10-----------------1212^^-13-10^^--12-12-12-13-12-8---7-----------------|
|-7-11-12-----11^^-7--7-11-12----------------------------------9----7-7h9p7---7^^--|
|---------------------------------------------------------------------------9------|
|----------------------------------------------------------------------------------|
|----------------------------------------------------------------------------------|

|----------12-|
|-------------|
|--6----------|
|----7-4^^----|
|-------------|
|-------------|

I play guitar solo part in em, 'cos I don't regonize weird scale in it.


|-15-14-12----14-12-----------------------------------------------------------------------------|
|----------15-------15-13-12----------------------------12-13-15--------------------------------|
|----------------------------14-12----------------12-14----------14-12--------------------------|
|----------------------------------16-14-12-14-16----------------------16-14-12------------9^^--|
|-------------------------------------------------------------------------------15-13-12--------|
|-----------------------------------------------------------------------------------------------|

|------------------------------------------------------------------------------------|
|-10h12p10----10---------------------------------------------------------------------|
|----------12---12-11---9-9h11p9----9-----------------------------------------9------|
|--------------------12----------12---12-11-9-12-11-9---------------------------9^^--|
|-----------------------------------------------------12-11-9----11-9----------------|
|-------------------------------------------------------------12------12-11-9--------|

can't here rest of the solo
so I don't put nothing here

|-----------------------------|
|-ksolo------gsolo------------|
|-----------------------------|
|--7----------5--(5)-7--------|
|--5----------3--(3)-5-7-5-4--|
|----------------------5-3-2--|

riff d 

|------------|
|------------|
|------------|
|-9999999999-|
|-7777777777-|
|-0000000000-|

riff e

|------------------------------------------------------------------|
|------------------------------------------------------------------|
|---7-5------------------------7-5----8------------7-5-------------|
|-5-7-5-7------<3>-----<3>---5-7-5-7--8-sl-------5-7-5-7--3-5-6-7--|
|-5-5-3-7--1^^-----1^^-------5-5-3-7--6-\--------5-5-3-7--1-3-4-5--|
|-3-----5--------------------3-----5-------1^^---3-----5-----------|

riff intro + riff f
2x
|--------------------------|--------------------------|
|--------------------------|--------------------------|
|-tr-----tr----tr----------|--tr----tr----tr----------|
|-4hp5p4-4h5p4-4h5p4-5--4--|--2h3p2-2h3p2-2h3p2-3-2---|
|------------------------5-|------------------------3-|
|--------------------------|--------------------------|
2x 
|-------------------------------|----------------------------------------------|
|-------------------------------|----------------------------------------------|
|-tr-----tr-----tr--------------|--tr----tr----tr------------------------------|
|-9h10p9-9h10p9-9h10p9--10-9----|--4h5p4-4h5p4-4h5p4-5-4----5-4----4-2---2-0---|
|----------------------------10-|------------------------5------7------5----3--|
|-------------------------------|----------------------------------------------|

verse riff

riff c

|--------------------------|
|--------------------------|
|-5-7-9--------9-7-5-7-4---|
|-5-7-9--------9-7-5-7-4---|
|-3-5-7-9-10-9-7-5-3-5-2---|
|--------------------------|

riff g
2x 2x 2.end
|----------|-------------|----------|
|----------|-------------|----------|
|----5---7-|-------------|----------|
|-2--5-5-7-|-------------|----------|
|-2--3-5-5-|--7-9-10-12--|----(12)--|
|-0----3---|--5-7-8--10--|----(10)--|

chorus riff

riff h
3x end
|-----------------------|----------------------|
|----------12-----------|----------------------|
|-11-12-14----14-12-11--|--11-12-14-11-12-14---|
|-----------------------|----------------------|
|-----------------------|----------------------|
|-----------------------|----------------------|

riff j

|------------------------------------------------|
|------------------------------------------------|
|------------------------------------------------|
|-4----4----4----5---4---4----4----4----5---4----|
|---22---22---22---2-------00---00---00---0------|
|------------------------------------------------|


|------------------------------------------------|
|------------------------------------------------|
|------------------------------------------------|
|-4----4----4----5---4---4----4----4----5---4----|
|------------------------------------------------|
|---33---33---33---3-------00---00---00---0------|



intro riff

|------|
|------|
|--4-9-|
|--4-9-|
|--2-7-|
|------|

end>>>>>>>>>>>>>>>>>>>>>>>>>>>>>>>>>>>>>>>>>>>>>>>>>>>>>>>>>>>>>>>>>>>>>>>>>>>>>>>>>>>>>>>>>>>>>>>>>>>>